Зимовье Зверей Колыбельная

из альбома Оба неба
Интро:


    Em                F#                   B7                 Em
1]--0--------7--------2--------2--------|--2---------5--------3--0--------------|
2]--------0--------0--------2-----2-----|--------0---------0-----------3--2--0--|
3]-----0--------0--------3-----------3--|-----2---------5-----------------------|
4]--2--------5--------4-----------------|--1---------4--------2-----2-----------|
5]--------------------------------------|---------------------------------------|
6]--------------------------------------|---------------------------------------|

    C        C/B      Am       Am/G        Am/F#     Am       B7       B7/F#
1]--------------------------------------|---------------------------------------|
2]-----1--1-----1--1-----1--1-----1--1--|-----1--1------1--1-----0--0-----0--0--|
3]-----0--0-----0--0-----2--2-----2--2--|-----2--2------2--2-----2--2-----2--2--|
4]-----2--2-----2--2-----2--2-----2--2--|-----2--2------2--2-----1--1-----1--1--|
5]--3--------2--------0-----------------|------------0--------2-----------------|
6]-----------------------------3--------|--2---------------------------2--------|



(A)
   Em  Em/G   F#
Полярная Звезда
 B7          Em
На середине неба
   C      C/B    Am   Am/G
И кислый мякиш хле - ба
    Am/F#  Am    B7
Да мыслей   череда.


(A)
И, сидя у окна,
Напротив зимней ночи
Ты видишь мир короче
И проще полотна.


(A)
А если сесть спиной
К окну на табуретку
И, если есть конфетку -
И быть совсем земной.


(A)
То не поймешь звезды,
И середины хлеба
И даже мыслей неба
   Am/F#  B7  C  D  E
Полярной череды.